Please log in or register. Registered visitors get fewer ads.
Forum index | Previous Thread | Next thread
Chooooon.... 20:58 - Jan 13 with 274 viewsBloodblue

.....Following on from another thread re the great escape music, how about this one.....

Great Escape by Alice Cooper.



Thoughts?
1

Chooooon.... on 21:06 - Jan 13 with 243 viewsMelford

I'm learning The Great Escape theme on the guitar
E-------------------0---------------------------------------
B-------------1-------3--1----3--3--1--0--1--0--------------
G----------0-----0----------2-------------------2--0--------
D-2--3--4----------------------------------------------2----
A-----------------------------------------------------------
E-----------------------------------------------------------

E-------------------0---------------------------------------
B-------------1-------3--1----3--3--1--0-----3--1-----------
G----------0-----0----------2-------------0-----------------
D-2--3--4---------------------------------------------------
A-----------------------------------------------------------
E-----------------------------------------------------------

Dragging TWTD into the gutter since 2009
Poll: Lovejoy or Bergerac?

1
Chooooon.... on 21:08 - Jan 13 with 230 viewsfooters

Chooooon.... on 21:06 - Jan 13 by Melford

I'm learning The Great Escape theme on the guitar
E-------------------0---------------------------------------
B-------------1-------3--1----3--3--1--0--1--0--------------
G----------0-----0----------2-------------------2--0--------
D-2--3--4----------------------------------------------2----
A-----------------------------------------------------------
E-----------------------------------------------------------

E-------------------0---------------------------------------
B-------------1-------3--1----3--3--1--0-----3--1-----------
G----------0-----0----------2-------------0-----------------
D-2--3--4---------------------------------------------------
A-----------------------------------------------------------
E-----------------------------------------------------------


Is that Town's form table for the rest of the season? Very happy with them cheeky four-pointers if so.
1
Chooooon.... on 21:10 - Jan 13 with 230 viewsBloodblue

Chooooon.... on 21:06 - Jan 13 by Melford

I'm learning The Great Escape theme on the guitar
E-------------------0---------------------------------------
B-------------1-------3--1----3--3--1--0--1--0--------------
G----------0-----0----------2-------------------2--0--------
D-2--3--4----------------------------------------------2----
A-----------------------------------------------------------
E-----------------------------------------------------------

E-------------------0---------------------------------------
B-------------1-------3--1----3--3--1--0-----3--1-----------
G----------0-----0----------2-------------0-----------------
D-2--3--4---------------------------------------------------
A-----------------------------------------------------------
E-----------------------------------------------------------


What one Melford, the Alice Cooper one?
0
Chooooon.... on 21:18 - Jan 13 with 208 viewsSuperblue95

Chooooon.... on 21:08 - Jan 13 by footers

Is that Town's form table for the rest of the season? Very happy with them cheeky four-pointers if so.


Nope it’s the results for our last 19 games. The opponents don’t even show up for our last 2 games and we still don’t score in one of them

My hobbies include being quiet during trips, clapping with songs, and diabetes.
Poll: Englands player of the tournament

0
About Us Contact Us Terms & Conditions Privacy Cookies Advertising
© TWTD 1995-2019